  0
SECTION
  2
HEADER
  9
$ACADVER
  1
AC1009
  9
$INSBASE
 10
6.914811694329799
 20
-1.304963886767595
 30
0.0
  9
$EXTMIN
 10
6.79930856423258
 20
-1.304963886767595
 30
0.0
  9
$EXTMAX
 10
20.53031482442698
 20
14.92237242768938
 30
0.0
  9
$LIMMIN
 10
0.0
 20
0.0
  9
$LIMMAX
 10
420.0
 20
297.0
  9
$ORTHOMODE
 70
     0
  9
$REGENMODE
 70
     0
  9
$FILLMODE
 70
     1
  9
$QTEXTMODE
 70
     0
  9
$MIRRTEXT
 70
     0
  9
$DRAGMODE
 70
     2
  9
$LTSCALE
 40
1.0
  9
$OSMODE
 70
     0
  9
$ATTMODE
 70
     1
  9
$TEXTSIZE
 40
3.5
  9
$TRACEWID
 40
0.1
  9
$TEXTSTYLE
  7
STANDARD
  9
$CLAYER
  8
0
  9
$CELTYPE
  6
BYLAYER
  9
$CECOLOR
 62
   256
  9
$DIMSCALE
 40
1.0
  9
$DIMASZ
 40
2.0
  9
$DIMEXO
 40
1.0
  9
$DIMDLI
 40
8.0
  9
$DIMRND
 40
0.0
  9
$DIMDLE
 40
0.0
  9
$DIMEXE
 40
2.0
  9
$DIMTP
 40
0.1
  9
$DIMTM
 40
0.1
  9
$DIMTXT
 40
3.5
  9
$DIMCEN
 40
2.0
  9
$DIMTSZ
 40
0.0
  9
$DIMTOL
 70
     0
  9
$DIMLIM
 70
     0
  9
$DIMTIH
 70
     0
  9
$DIMTOH
 70
     0
  9
$DIMSE1
 70
     0
  9
$DIMSE2
 70
     0
  9
$DIMTAD
 70
     1
  9
$DIMZIN
 70
     0
  9
$DIMBLK
  1

  9
$DIMASO
 70
     1
  9
$DIMSHO
 70
     0
  9
$DIMPOST
  1

  9
$DIMAPOST
  1

  9
$DIMALT
 70
     0
  9
$DIMALTD
 70
     2
  9
$DIMALTF
 40
25.39999999999999
  9
$DIMLFAC
 40
1.0
  9
$DIMTOFL
 70
     0
  9
$DIMTVP
 40
0.0
  9
$DIMTIX
 70
     0
  9
$DIMSOXD
 70
     0
  9
$DIMSAH
 70
     0
  9
$DIMBLK1
  1

  9
$DIMBLK2
  1

  9
$DIMSTYLE
  2
*UNNAMED
  9
$DIMCLRD
 70
     0
  9
$DIMCLRE
 70
     0
  9
$DIMCLRT
 70
     0
  9
$DIMTFAC
 40
1.0
  9
$DIMGAP
 40
0.09
  9
$LUNITS
 70
     2
  9
$LUPREC
 70
     3
  9
$SKETCHINC
 40
0.1
  9
$FILLETRAD
 40
20.0
  9
$AUNITS
 70
     0
  9
$AUPREC
 70
     1
  9
$MENU
  1

  9
$ELEVATION
 40
0.0
  9
$PELEVATION
 40
0.0
  9
$THICKNESS
 40
0.0
  9
$LIMCHECK
 70
     0
  9
$BLIPMODE
 70
     0
  9
$CHAMFERA
 40
0.0
  9
$CHAMFERB
 40
0.0
  9
$SKPOLY
 70
     1
  9
$TDCREATE
 40
2448530.545041319
  9
$TDUPDATE
 40
2449393.434743518
  9
$TDINDWG
 40
0.0035085648
  9
$TDUSRTIMER
 40
0.0035085648
  9
$USRTIMER
 70
     1
  9
$ANGBASE
 50
0.0
  9
$ANGDIR
 70
     0
  9
$PDMODE
 70
     0
  9
$PDSIZE
 40
0.0
  9
$PLINEWID
 40
0.0
  9
$COORDS
 70
     2
  9
$SPLFRAME
 70
     0
  9
$SPLINETYPE
 70
     6
  9
$SPLINESEGS
 70
     8
  9
$ATTDIA
 70
     0
  9
$ATTREQ
 70
     1
  9
$HANDLING
 70
     0
  9
$HANDSEED
  5
120
  9
$SURFTAB1
 70
     6
  9
$SURFTAB2
 70
     6
  9
$SURFTYPE
 70
     6
  9
$SURFU
 70
     6
  9
$SURFV
 70
     6
  9
$UCSNAME
  2

  9
$UCSORG
 10
0.0
 20
0.0
 30
0.0
  9
$UCSXDIR
 10
1.0
 20
0.0
 30
0.0
  9
$UCSYDIR
 10
0.0
 20
1.0
 30
0.0
  9
$PUCSNAME
  2

  9
$PUCSORG
 10
0.0
 20
0.0
 30
0.0
  9
$PUCSXDIR
 10
1.0
 20
0.0
 30
0.0
  9
$PUCSYDIR
 10
0.0
 20
1.0
 30
0.0
  9
$USERI1
 70
     0
  9
$USERI2
 70
     3
  9
$USERI3
 70
    15
  9
$USERI4
 70
     0
  9
$USERI5
 70
     0
  9
$USERR1
 40
1.0
  9
$USERR2
 40
1.0
  9
$USERR3
 40
0.0
  9
$USERR4
 40
1.0
  9
$USERR5
 40
0.0
  9
$WORLDVIEW
 70
     1
  9
$SHADEDGE
 70
     3
  9
$SHADEDIF
 70
    70
  9
$TILEMODE
 70
     1
  9
$MAXACTVP
 70
    16
  9
$PINSBASE
 10
0.0
 20
0.0
 30
0.0
  9
$PLIMCHECK
 70
     0
  9
$PEXTMIN
 10
1.000000000000000E+20
 20
1.000000000000000E+20
 30
1.000000000000000E+20
  9
$PEXTMAX
 10
-1.000000000000000E+20
 20
-1.000000000000000E+20
 30
-1.000000000000000E+20
  9
$PLIMMIN
 10
0.0
 20
0.0
  9
$PLIMMAX
 10
12.0
 20
9.0
  9
$UNITMODE
 70
     0
  9
$VISRETAIN
 70
     0
  9
$PLINEGEN
 70
     0
  9
$PSLTSCALE
 70
     0
  9
$TREEDEPTH
 70
  3020
  9
$DWGCODEPAGE
  3
undefined
  0
ENDSEC
  0
SECTION
  2
TABLES
  0
TABLE
  2
VPORT
 70
     2
  0
VPORT
  2
*ACTIVE
 70
     0
 10
0.0
 20
0.0
 11
1.0
 21
1.0
 12
18.11753905358744
 22
7.476835102480984
 13
0.0
 23
0.0
 14
1.0
 24
1.0
 15
10.0
 25
10.0
 16
0.0
 26
0.0
 36
1.0
 17
0.0
 27
0.0
 37
0.0
 40
17.56359797849716
 41
1.275675675675675
 42
50.0
 43
0.0
 44
0.0
 50
0.0
 51
0.0
 71
     0
 72
 20000
 73
     1
 74
     1
 75
     0
 76
     0
 77
     0
 78
     0
  0
ENDTAB
  0
TABLE
  2
LTYPE
 70
     3
  0
LTYPE
  2
AUSGEZOGEN
 70
    64
  3
Solid line
 72
    65
 73
     0
 40
0.0
  0
LTYPE
  2
ITEM-STRICH
 70
    64
  3
- - - - -
 72
    65
 73
     2
 40
1.5
 49
1.2
 49
-0.3
  0
LTYPE
  2
ITEM-STRICHPUNKT
 70
    64
  3
__ . __ . __
 72
    65
 73
     4
 40
3.599999999999999
 49
2.399999999999999
 49
-0.6
 49
0.0
 49
-0.6
  0
ENDTAB
  0
TABLE
  2
LAYER
 70
     5
  0
LAYER
  2
0
 70
     0
 62
     7
  6
AUSGEZOGEN
  0
LAYER
  2
ITEM_50
 70
    64
 62
     7
  6
AUSGEZOGEN
  0
LAYER
  2
ITEM_25
 70
    64
 62
     3
  6
AUSGEZOGEN
  0
LAYER
  2
ITEM_STP
 70
    64
 62
     4
  6
ITEM-STRICHPUNKT
  0
LAYER
  2
ITEM_GSTR
 70
    64
 62
     6
  6
ITEM-STRICH
  0
ENDTAB
  0
TABLE
  2
STYLE
 70
     1
  0
STYLE
  2
STANDARD
 70
     0
 40
0.0
 41
1.0
 50
0.0
 71
     0
 42
3.5
  3
iso
  4

  0
ENDTAB
  0
TABLE
  2
VIEW
 70
     0
  0
ENDTAB
  0
TABLE
  2
UCS
 70
     0
  0
ENDTAB
  0
TABLE
  2
APPID
 70
     1
  0
APPID
  2
ACAD
 70
    64
  0
ENDTAB
  0
TABLE
  2
DIMSTYLE
 70
     0
  0
ENDTAB
  0
ENDSEC
  0
SECTION
  2
BLOCKS
  0
ENDSEC
  0
SECTION
  2
ENTITIES
  0
LINE
  8
ITEM_50
 10
17.66481169432661
 20
0.9923354514276213
 30
0.0
 11
16.09353116850446
 21
0.1771161000865078
 31
0.0
  0
LINE
  8
ITEM_GSTR
 10
17.66481169451584
 20
2.086114924223593
 30
0.0
 11
19.09157940056867
 21
2.086131354342299
 31
0.0
  0
LINE
  8
ITEM_50
 10
17.66481169432661
 20
1.732577963747317
 30
0.0
 11
17.32497428106508
 21
1.732577963747886
 31
0.0
  0
LINE
  8
ITEM_50
 10
9.664811694326616
 20
0.9923354514301224
 30
0.0
 11
11.23609222015842
 21
0.1771161000836656
 31
0.0
  0
LINE
  8
ITEM_50
 10
9.664811694326616
 20
2.086131354344004
 30
0.0
 11
10.00467107725854
 21
2.086131354344289
 31
0.0
  0
LINE
  8
ITEM_50
 10
9.664811694326616
 20
1.732577963747772
 30
0.0
 11
10.00464910759014
 21
1.732577963747886
 31
0.0
  0
POLYLINE
  8
ITEM_25
 66
     1
 10
0.0
 20
0.0
 30
0.0
  0
VERTEX
  8
ITEM_25
 10
11.20215425205658
 20
9.848056294411222
 30
0.0
 42
0.0944681794221632
 50
215.2643896827548
  0
VERTEX
  8
ITEM_25
 10
11.16481169432661
 20
9.652173913043455
 30
0.0
 42
0.1332561510788766
  0
VERTEX
  8
ITEM_25
 10
11.23783075492634
 20
9.383058957280823
 30
0.0
 42
0.1067562697216242
  0
VERTEX
  8
ITEM_25
 10
11.70240997336493
 20
8.876918784435034
 30
0.0
 42
0.0828275296410057
 70
     2
 50
324.7356103172451
  0
VERTEX
  8
ITEM_25
 10
12.50182470315913
 20
8.490558349166306
 30
0.0
 42
0.0713517487531289
 50
324.7356103172451
  0
VERTEX
  8
ITEM_25
 10
13.66481169432661
 20
8.323746788297242
 30
0.0
 42
0.0713517487531289
  0
VERTEX
  8
ITEM_25
 10
14.82779868549427
 20
8.490558349166306
 30
0.0
 42
0.0828275296410058
  0
VERTEX
  8
ITEM_25
 10
15.6272134152884
 20
8.876918784435034
 30
0.0
 42
0.1067562697216243
 70
     2
 50
35.26438968275488
  0
VERTEX
  8
ITEM_25
 10
16.09179263372693
 20
9.383058957280823
 30
0.0
 42
0.1332561510788761
 50
35.26438968275488
  0
VERTEX
  8
ITEM_25
 10
16.16481169432661
 20
9.652173913043455
 30
0.0
 42
0.1332561510788766
  0
VERTEX
  8
ITEM_25
 10
16.09179263372693
 20
9.921288868806087
 30
0.0
 42
0.1067562697216206
  0
VERTEX
  8
ITEM_25
 10
15.6272134152884
 20
10.42742904165187
 30
0.0
 42
0.0828275296409854
 70
     2
 50
144.735610317245
  0
VERTEX
  8
ITEM_25
 10
14.82779868549427
 20
10.8137894769206
 30
0.0
 42
0.1000859949379915
 50
144.735610317245
  0
VERTEX
  8
ITEM_25
 10
13.19378367070471
 20
10.9537018110937
 30
0.0
 42
0.0713517487531155
  0
SEQEND
  8
ITEM_25
  0
LINE
  8
ITEM_50
 10
11.74835215557381
 20
9.692917079729014
 30
0.0
 11
12.69815440013123
 21
10.3149105595677
 31
0.0
  0
LINE
  8
ITEM_50
 10
12.69815440013123
 20
10.3149105595677
 30
0.0
 11
14.597758889246
 21
10.31491055956776
 31
0.0
  0
LINE
  8
ITEM_50
 10
14.597758889246
 20
10.31491055956776
 30
0.0
 11
15.54756113380342
 21
9.692917079729014
 31
0.0
  0
LINE
  8
ITEM_50
 10
14.597758889246
 20
9.070923599890093
 30
0.0
 11
15.54756113380342
 21
9.692917079728786
 31
0.0
  0
LINE
  8
ITEM_50
 10
12.69815440013123
 20
9.07092359989015
 30
0.0
 11
14.597758889246
 21
9.070923599890093
 31
0.0
  0
LINE
  8
ITEM_50
 10
11.74835215557381
 20
9.692917079728786
 30
0.0
 11
12.69815440013123
 21
9.07092359989015
 31
0.0
  0
LINE
  8
ITEM_STP
 10
13.66481169432661
 20
9.652173913040329
 30
0.0
 11
13.66481169432661
 21
-1.304963886767595
 31
0.0
  0
LINE
  8
ITEM_STP
 10
13.66481169432661
 20
9.652173913040329
 30
0.0
 11
8.394613179677563
 21
9.652173913040329
 31
0.0
  0
LINE
  8
ITEM_STP
 10
13.66481169432661
 20
9.652173913040329
 30
0.0
 11
13.66481169432661
 21
14.92237242768938
 31
0.0
  0
LINE
  8
ITEM_STP
 10
13.66481169432661
 20
9.652173913040329
 30
0.0
 11
18.93501020897566
 21
9.652173913040329
 31
0.0
  0
LINE
  8
ITEM_50
 10
9.664811694326616
 20
9.652176508413404
 30
0.0
 11
9.664811694326616
 21
8.077814596556109
 31
0.0
  0
LINE
  8
ITEM_50
 10
17.66481169432661
 20
9.652173913043455
 30
0.0
 11
17.66481169432661
 21
8.077814596560315
 31
0.0
  0
POLYLINE
  8
ITEM_GSTR
 66
     1
 10
0.0
 20
0.0
 30
0.0
  0
VERTEX
  8
ITEM_GSTR
 10
19.09157940056424
 20
1.732577963746351
 30
0.0
 42
0.0660346647203773
 70
     2
 50
35.26438968275473
  0
VERTEX
  8
ITEM_GSTR
 10
19.94444680976592
 20
2.827454642051648
 30
0.0
 42
0.1332561510788826
 50
35.26438968275473
  0
VERTEX
  8
ITEM_GSTR
 10
20.41481169432977
 20
4.561005088497282
 30
0.0
 42
0.0128920748156086
  0
VERTEX
  8
ITEM_GSTR
 10
20.4102528998698
 20
4.737781783793948
 30
0.0
 42
0.1067562697216164
  0
SEQEND
  8
ITEM_GSTR
  0
POLYLINE
  8
ITEM_50
 66
     1
 10
0.0
 20
0.0
 30
0.0
  0
VERTEX
  8
ITEM_50
 10
15.62045094122346
 20
-0.0351889892154844
 30
0.0
 42
0.028388462620213
  0
VERTEX
  8
ITEM_50
 10
16.09353116850446
 20
0.1771161000865078
 30
0.0
 42
0.1049217793552108
 70
     2
 50
38.70825624808729
  0
SEQEND
  8
ITEM_50
  0
POLYLINE
  8
ITEM_50
 66
     1
 10
0.0
 20
0.0
 30
0.0
  0
VERTEX
  8
ITEM_50
 10
11.23609300319056
 20
0.1771156938271616
 30
0.0
 42
0.0283884143240894
 70
     2
 50
321.2917437519126
  0
VERTEX
  8
ITEM_50
 10
11.70917244742567
 20
-0.0351889892131538
 30
0.0
 42
0.0141740317336122
 50
321.2917437519126
  0
SEQEND
  8
ITEM_50
  0
LINE
  8
ITEM_GSTR
 10
19.09157940056549
 20
1.732577963747886
 30
0.0
 11
17.66481169432661
 21
0.9923354514276213
 31
0.0
  0
LINE
  8
ITEM_GSTR
 10
8.238043988094048
 20
1.732577963747431
 30
0.0
 11
9.664811694326616
 21
0.9923354514301224
 31
0.0
  0
LINE
  8
ITEM_GSTR
 10
19.09157940056424
 20
1.732577963744816
 30
0.0
 11
17.66481169432661
 21
1.732577963747317
 31
0.0
  0
LINE
  8
ITEM_50
 10
17.32497428106508
 20
2.086111010784137
 30
0.0
 11
17.66481169432661
 21
2.086114924223593
 31
0.0
  0
LINE
  8
ITEM_GSTR
 10
8.238043988095185
 20
1.732577963747431
 30
0.0
 11
9.664811694326616
 21
1.732577963747772
 31
0.0
  0
LINE
  8
ITEM_GSTR
 10
8.238043988090808
 20
2.086131354342924
 30
0.0
 11
9.664811694326616
 21
2.086131354344004
 31
0.0
  0
LINE
  8
ITEM_GSTR
 10
8.238043988090808
 20
2.086131354344289
 30
0.0
 11
8.238043988095185
 21
1.732577963747886
 31
0.0
  0
LINE
  8
ITEM_GSTR
 10
19.09157940056867
 20
2.086131354344289
 30
0.0
 11
19.09157940056424
 21
1.732577963747886
 31
0.0
  0
LINE
  8
ITEM_50
 10
11.70917244742942
 20
-0.0351889892131538
 30
0.0
 11
15.62045094122204
 21
-0.0351889892154844
 31
0.0
  0
LINE
  8
ITEM_50
 10
17.32497428106508
 20
1.732561010784436
 30
0.0
 11
17.32497428106508
 21
2.086111010784421
 31
0.0
  0
LINE
  8
ITEM_50
 10
10.00464910759014
 20
1.732561010784493
 30
0.0
 11
10.00464910759014
 21
2.086111010784478
 31
0.0
  0
ARC
  8
ITEM_50
 10
14.17629728303883
 20
4.049348871840223
 30
0.0
 40
4.771808304286667
 50
209.046265357528
 51
238.8673663626451
  0
ARC
  8
ITEM_50
 10
13.15332610561638
 20
4.049348871840166
 30
0.0
 40
4.771808304286667
 50
301.1326336373548
 51
330.9537346424719
  0
ARC
  8
ITEM_50
 10
29.6322794382021
 20
15.37719013210717
 30
0.0
 40
18.11415315271883
 50
208.1772198547314
 51
227.2008565127644
  0
ARC
  8
ITEM_50
 10
-2.302656049550748
 20
15.37719013212502
 30
0.0
 40
18.11415315273453
 50
312.7991434872063
 51
331.822780145231
  0
ARC
  8
ITEM_GSTR
 10
10.34453230154984
 20
4.561005088497442
 30
0.0
 40
3.429720607220046
 50
177.0455177721677
 51
180.0000000000027
  0
ARC
  8
ITEM_GSTR
 10
10.34453230155028
 20
4.561005088497282
 30
0.0
 40
3.429720607220486
 50
180.0
 51
210.3611934048216
  0
ARC
  8
ITEM_GSTR
 10
11.93861838189526
 20
5.494799094770421
 30
0.0
 40
5.277173361068672
 50
210.3611934047956
 51
225.4732834386025
  0
ARC
  8
ITEM_GSTR
 10
13.05800889866438
 20
2.772707222422492
 30
0.0
 40
6.297455956068462
 50
122.6033686587863
 51
125.2643896828433
  0
ARC
  8
ITEM_GSTR
 10
12.13041763883098
 20
4.084519362400799
 30
0.0
 40
4.690820765393937
 50
125.2643896827551
 51
149.6388065951798
  0
ARC
  8
ITEM_GSTR
 10
10.71345223408107
 20
4.914558479089706
 30
0.0
 40
3.048640539751279
 50
149.6388065951788
 51
180.0
  0
ARC
  8
ITEM_GSTR
 10
10.71345223408106
 20
4.914558479089758
 30
0.0
 40
3.048640539751263
 50
180.0000000000009
 51
210.3611934048211
  0
ARC
  8
ITEM_GSTR
 10
12.13041763882966
 20
5.744597595780673
 30
0.0
 40
4.690820765393811
 50
210.3611934048494
 51
231.2532768286964
  0
ARC
  8
ITEM_GSTR
 10
12.98215854919733
 20
2.504975815333517
 30
0.0
 40
7.084637950577133
 50
117.9204409731823
 51
125.2643896827546
  0
ARC
  8
ITEM_GSTR
 10
11.93861838189356
 20
3.98076447281569
 30
0.0
 40
5.277173361068
 50
125.2643896827552
 51
149.6388065951804
  0
ARC
  8
ITEM_GSTR
 10
10.34453230154985
 20
4.914558479090506
 30
0.0
 40
3.429720607220051
 50
149.6388065951763
 51
179.9999999999991
  0
ARC
  8
ITEM_GSTR
 10
10.34453230155028
 20
4.914558479090558
 30
0.0
 40
3.429720607220486
 50
180.0
 51
210.3611934048216
  0
ARC
  8
ITEM_GSTR
 10
11.93861838189694
 20
5.848352485360957
 30
0.0
 40
5.277173361068738
 50
210.3611934047607
 51
225.473283438511
  0
ARC
  8
ITEM_50
 10
13.66481169432663
 20
6.843103518813144
 30
0.0
 40
5.637497518976523
 50
90.00000000000014
 51
106.3249499368956
  0
ARC
  8
ITEM_50
 10
13.26027649721148
 20
8.224273075261026
 30
0.0
 40
4.198303970712973
 50
106.324949936896
 51
125.2643896827548
  0
ARC
  8
ITEM_50
 10
12.64188232399423
 20
9.098814501917267
 30
0.0
 40
3.127213843596219
 50
125.2643896827539
 51
149.6388065951773
  0
ARC
  8
ITEM_50
 10
11.69723872082746
 20
9.652173913043455
 30
0.0
 40
2.032427026500853
 50
149.6388065951788
 51
180.0
  0
ARC
  8
ITEM_50
 10
11.69723872082746
 20
9.652173913043455
 30
0.0
 40
2.032427026500853
 50
180.0
 51
210.3611934048211
  0
ARC
  8
ITEM_50
 10
12.64188232399423
 20
10.20553332416964
 30
0.0
 40
3.127213843596227
 50
210.3611934048226
 51
234.7356103172459
  0
ARC
  8
ITEM_50
 10
13.26027649721113
 20
11.08007475082532
 30
0.0
 40
4.198303970712321
 50
234.7356103172445
 51
253.6750500631045
  0
ARC
  8
ITEM_50
 10
13.66481169432661
 20
12.4612443072731
 30
0.0
 40
5.637497518975864
 50
253.6750500631013
 51
270.0
  0
ARC
  8
ITEM_50
 10
13.66481169432661
 20
12.4612443072731
 30
0.0
 40
5.637497518975864
 50
270.0
 51
286.3249499368986
  0
ARC
  8
ITEM_50
 10
14.06934689144211
 20
11.08007475082551
 30
0.0
 40
4.198303970712487
 50
286.3249499368944
 51
305.2643896827543
  0
ARC
  8
ITEM_50
 10
14.68774106465902
 20
10.20553332416951
 30
0.0
 40
3.127213843596128
 50
305.2643896827557
 51
329.6388065951791
  0
ARC
  8
ITEM_50
 10
15.63238466782576
 20
9.652173913043455
 30
0.0
 40
2.032427026500853
 50
329.6388065951788
 51
0.0
  0
ARC
  8
ITEM_50
 10
15.63238466782576
 20
9.652173913043455
 30
0.0
 40
2.032427026500853
 50
0.0
 51
30.3611934048211
  0
ARC
  8
ITEM_50
 10
14.68774106465901
 20
9.098814501917381
 30
0.0
 40
3.127213843596153
 50
30.36119340482098
 51
54.73561031724413
  0
ARC
  8
ITEM_50
 10
14.06934689144155
 20
8.224273075260617
 30
0.0
 40
4.198303970713452
 50
54.73561031724554
 51
73.67505006310145
  0
ARC
  8
ITEM_50
 10
13.66481169432661
 20
6.84310351881245
 30
0.0
 40
5.637497518977217
 50
73.67505006310534
 51
90.0
  0
ARC
  8
ITEM_50
 10
13.66481169432668
 20
6.843103518813067
 30
0.0
 40
4.637497518976601
 50
90.0000000000009
 51
106.3249499368965
  0
ARC
  8
ITEM_50
 10
13.26027649721137
 20
8.224273075260981
 30
0.0
 40
3.198303970712973
 50
106.3249499368948
 51
125.2643896827533
  0
ARC
  8
ITEM_50
 10
12.64188232399421
 20
9.098814501917356
 30
0.0
 40
2.127213843596159
 50
125.2643896827551
 51
149.6388065951779
  0
ARC
  8
ITEM_50
 10
11.69723872082745
 20
9.65217391304346
 30
0.0
 40
1.032427026500843
 50
149.6388065951779
 51
180.0000000000003
  0
ARC
  8
ITEM_50
 10
11.69723872082745
 20
9.652173913043448
 30
0.0
 40
1.03242702650084
 50
179.9999999999996
 51
210.3611934048219
  0
ARC
  8
ITEM_50
 10
12.64188232399421
 20
10.20553332416955
 30
0.0
 40
2.127213843596162
 50
210.361193404822
 51
234.7356103172448
  0
ARC
  8
ITEM_50
 10
13.26027649721127
 20
11.0800747508257
 30
0.0
 40
3.198303970712729
 50
234.7356103172459
 51
253.6750500631059
  0
ARC
  8
ITEM_50
 10
13.66481169432656
 20
12.461244307273
 30
0.0
 40
4.637497518975763
 50
253.675050063102
 51
270.0000000000005
  0
ARC
  8
ITEM_50
 10
13.66481169432652
 20
12.46124430727343
 30
0.0
 40
4.637497518976188
 50
270.0000000000011
 51
286.3249499368997
  0
ARC
  8
ITEM_50
 10
14.06934689144218
 20
11.08007475082539
 30
0.0
 40
3.198303970712341
 50
286.324949936894
 51
305.2643896827539
  0
ARC
  8
ITEM_50
 10
14.68774106465902
 20
10.20553332416955
 30
0.0
 40
2.127213843596159
 50
305.2643896827551
 51
329.6388065951779
  0
ARC
  8
ITEM_50
 10
15.63238466782577
 20
9.65217391304345
 30
0.0
 40
1.032427026500843
 50
329.6388065951779
 51
0.0000000000002957
  0
ARC
  8
ITEM_50
 10
15.6323846678259
 20
9.652173913043538
 30
0.0
 40
1.032427026500707
 50
359.9999999999953
 51
30.36119340481774
  0
ARC
  8
ITEM_50
 10
14.68774106465898
 20
9.098814501917258
 30
0.0
 40
2.12721384359626
 50
30.36119340482174
 51
54.73561031724555
  0
ARC
  8
ITEM_50
 10
14.06934689144172
 20
8.224273075260946
 30
0.0
 40
3.198303970713074
 50
54.73561031724519
 51
73.67505006310126
  0
ARC
  8
ITEM_50
 10
13.66481169432656
 20
6.843103518812442
 30
0.0
 40
4.637497518977226
 50
73.67505006310459
 51
89.99999999999938
  0
ARC
  8
ITEM_50
 10
11.69723872082974
 20
8.077814596563442
 30
0.0
 40
2.032427026500853
 50
180.0
 51
210.3611934048211
  0
ARC
  8
ITEM_50
 10
12.64188232399651
 20
8.631174007689635
 30
0.0
 40
3.127213843596227
 50
210.3611934048226
 51
234.7356103172459
  0
ARC
  8
ITEM_50
 10
13.26027649721341
 20
9.505715434345315
 30
0.0
 40
4.198303970712321
 50
234.7356103172445
 51
253.6750500631045
  0
ARC
  8
ITEM_50
 10
13.66481169432858
 20
10.88688499079315
 30
0.0
 40
5.637497518975839
 50
253.6750500631045
 51
260.8078038461234
  0
ARC
  8
ITEM_50
 10
13.66481169432906
 20
10.88688499079314
 30
0.0
 40
5.637497518975859
 50
279.1921961538826
 51
286.3249499368968
  0
ARC
  8
ITEM_50
 10
14.06934689144439
 20
9.505715434345496
 30
0.0
 40
4.198303970712487
 50
286.3249499368944
 51
305.2643896827543
  0
ARC
  8
ITEM_50
 10
14.6877410646613
 20
8.631174007689498
 30
0.0
 40
3.127213843596128
 50
305.2643896827557
 51
329.6388065951791
  0
ARC
  8
ITEM_50
 10
15.63238466782804
 20
8.077814596563438
 30
0.0
 40
2.032427026500842
 50
329.6388065951788
 51
359.9999999998943
  0
ARC
  8
ITEM_GSTR
 10
15.39100500676318
 20
5.848352485360516
 30
0.0
 40
5.277173361067974
 50
314.5267165614873
 51
329.6388065952421
  0
ARC
  8
ITEM_GSTR
 10
16.98509108710973
 20
4.914558479090558
 30
0.0
 40
3.429720607220037
 50
329.6388065951772
 51
0.0
  0
ARC
  8
ITEM_GSTR
 10
16.98509108710936
 20
4.914558479090611
 30
0.0
 40
3.42972060722041
 50
359.9999999999991
 51
30.36119340481915
  0
ARC
  8
ITEM_GSTR
 10
15.39100500676567
 20
3.980764472815118
 30
0.0
 40
5.277173361068671
 50
30.36119340482315
 51
54.73561031724523
  0
ARC
  8
ITEM_GSTR
 10
14.34746483946427
 20
2.504975815331285
 30
0.0
 40
7.084637950577794
 50
54.73561031726905
 51
62.07955902689712
  0
ARC
  8
ITEM_GSTR
 10
14.27161448999378
 20
2.772707222422882
 30
0.0
 40
6.297455956068971
 50
54.73561031714393
 51
57.39663134126983
  0
ARC
  8
ITEM_GSTR
 10
15.19920574982861
 20
4.084519362400799
 30
0.0
 40
4.690820765393937
 50
30.36119340482019
 51
54.73561031724489
  0
ARC
  8
ITEM_GSTR
 10
16.61617115457852
 20
4.914558479089706
 30
0.0
 40
3.048640539751279
 50
0.0
 51
30.3611934048211
  0
ARC
  8
ITEM_GSTR
 10
16.61617115457856
 20
4.914558479089653
 30
0.0
 40
3.048640539751236
 50
329.6388065951807
 51
0.0000000000009848
  0
ARC
  8
ITEM_GSTR
 10
15.19920574982995
 20
5.744597595780828
 30
0.0
 40
4.690820765393914
 50
308.7467231713021
 51
329.6388065951491
  0
ENDSEC
  0
EOF
